ISO-10303-21;
HEADER;
FILE_DESCRIPTION (( 'STEP AP203' ),
    '1' );
FILE_NAME ('250805 STEP 3-400169-00_0136.STEP',
    '2025-08-05T05:42:30',
    ( '' ),
    ( '' ),
    'SwSTEP 2.0',
    'SolidWorks 2024',
    '' );
FILE_SCHEMA (( 'CONFIG_CONTROL_DESIGN' ));
ENDSEC;

DATA;
#1 = DIRECTION ( 'NONE',  ( -1.000000000000000000, -3.944304526105059027E-31, -4.930380657631323784E-32 ) ) ;
#2 = APPLICATION_CONTEXT ( 'configuration controlled 3d designs of mechanical parts and assemblies' ) ;
#3 = DIRECTION ( 'NONE',  ( 1.000000000000000000, 1.665334536937737029E-16, 0.000000000000000000 ) ) ;
#4 = CARTESIAN_POINT ( 'NONE',  ( 15.00000000000000000, -1.337163791251998927E-30, 5.000000000000014211 ) ) ;
#5 = VERTEX_POINT ( 'NONE', #188 ) ;
#6 = DIRECTION ( 'NONE',  ( 0.000000000000000000, 0.000000000000000000, 1.000000000000000000 ) ) ;
#7 = AXIS2_PLACEMENT_3D ( 'NONE', #213, #232, #74 ) ;
#8 = CARTESIAN_POINT ( 'NONE',  ( 0.000000000000000000, 0.000000000000000000, 0.000000000000000000 ) ) ;
#9 = ORIENTED_EDGE ( 'NONE', *, *, #126, .F. ) ;
#10 = FACE_OUTER_BOUND ( 'NONE', #176, .T. ) ;
#11 = FACE_OUTER_BOUND ( 'NONE', #127, .T. ) ;
#12 = APPROVAL_DATE_TIME ( #216, #89 ) ;
#13 = EDGE_CURVE ( 'NONE', #99, #99, #234, .T. ) ;
#14 = DIRECTION ( 'NONE',  ( 4.930380657631323784E-32, -2.674327582503997591E-31, 1.000000000000000000 ) ) ;
#15 = AXIS2_PLACEMENT_3D ( 'NONE', #41, #164, #268 ) ;
#16 = PERSON_AND_ORGANIZATION_ROLE ( 'design_supplier' ) ;
#17 = ORIENTED_EDGE ( 'NONE', *, *, #70, .T. ) ;
#18 = DIRECTION ( 'NONE',  ( 1.000000000000000000, 3.944304526105059027E-31, -4.930380657631323784E-32 ) ) ;
#19 = CIRCLE ( 'NONE', #251, 5.000000000000000000 ) ;
#20 = PRODUCT_DEFINITION_FORMATION_WITH_SPECIFIED_SOURCE ( 'ANY', '', #279, .NOT_KNOWN. ) ;
#21 = APPROVAL_ROLE ( '' ) ;
#22 = PLANE ( 'NONE',  #15 ) ;
#23 = CARTESIAN_POINT ( 'NONE',  ( 14.99999999999998579, 5.916456789157582935E-30, 7.395570986446978669E-31 ) ) ;
#24 = CARTESIAN_POINT ( 'NONE',  ( 14.99999999999998579, 5.000000000000004441, 1.040834085586084257E-14 ) ) ;
#25 = AXIS2_PLACEMENT_3D ( 'NONE', #277, #95, #78 ) ;
#26 = CC_DESIGN_DATE_AND_TIME_ASSIGNMENT ( #260, #101, ( #293 ) ) ;
#27 = FACE_BOUND ( 'NONE', #104, .T. ) ;
#28 = AXIS2_PLACEMENT_3D ( 'NONE', #23, #110, #266 ) ;
#29 = CC_DESIGN_APPROVAL ( #89, ( #293 ) ) ;
#30 = ADVANCED_FACE ( 'NONE', ( #35, #11 ), #259, .T. ) ;
#31 = DIRECTION ( 'NONE',  ( 1.000000000000000000, 3.944304526105059027E-31, 4.930380657631323784E-32 ) ) ;
#32 = DIRECTION ( 'NONE',  ( 0.000000000000000000, -1.000000000000000000, 0.000000000000000000 ) ) ;
#33 = EDGE_LOOP ( 'NONE', ( #54 ) ) ;
#34 =( LENGTH_UNIT ( ) NAMED_UNIT ( * ) SI_UNIT ( .MILLI., .METRE. ) );
#35 = FACE_OUTER_BOUND ( 'NONE', #83, .T. ) ;
#36 = VERTEX_POINT ( 'NONE', #98 ) ;
#37 = APPROVAL_ROLE ( '' ) ;
#38 = EDGE_LOOP ( 'NONE', ( #120 ) ) ;
#39 = PERSON_AND_ORGANIZATION_ROLE ( 'classification_officer' ) ;
#40 = ADVANCED_BREP_SHAPE_REPRESENTATION ( '250805 STEP 3-400169-00_0136', ( #228, #93 ), #153 ) ;
#41 = CARTESIAN_POINT ( 'NONE',  ( 145.0000000000000284, 5.000000000000004441, 1.040834085586084257E-14 ) ) ;
#42 = PERSON_AND_ORGANIZATION_ROLE ( 'creator' ) ;
#43 = PLANE ( 'NONE',  #125 ) ;
#44 = APPROVAL_ROLE ( '' ) ;
#45 = CARTESIAN_POINT ( 'NONE',  ( 127.5000000000000000, 7.500000000000000000, 0.000000000000000000 ) ) ;
#46 = DESIGN_CONTEXT ( 'detailed design', #2, 'design' ) ;
#47 = DIRECTION ( 'NONE',  ( -1.000000000000000000, -3.944304526105059027E-31, -4.930380657631323784E-32 ) ) ;
#48 = AXIS2_PLACEMENT_3D ( 'NONE', #275, #1, #253 ) ;
#49 = ADVANCED_FACE ( 'NONE', ( #198, #85 ), #207, .F. ) ;
#50 = FACE_BOUND ( 'NONE', #257, .T. ) ;
#51 = DIRECTION ( 'NONE',  ( -1.000000000000000000, -3.944304526105059027E-31, -4.930380657631323784E-32 ) ) ;
#52 = AXIS2_PLACEMENT_3D ( 'NONE', #124, #214, #14 ) ;
#53 = CYLINDRICAL_SURFACE ( 'NONE', #111, 7.500000000000000000 ) ;
#54 = ORIENTED_EDGE ( 'NONE', *, *, #229, .F. ) ;
#55 = VERTEX_POINT ( 'NONE', #169 ) ;
#56 = LOCAL_TIME ( 8, 42, 30.00000000000000000, #262 ) ;
#57 = CARTESIAN_POINT ( 'NONE',  ( 17.50000000000007105, -1.681987882307108688E-14, 7.081216958785108281E-30 ) ) ;
#58 = CALENDAR_DATE ( 2025, 5, 8 ) ;
#59 = EDGE_LOOP ( 'NONE', ( #9 ) ) ;
#60 = ADVANCED_FACE ( 'NONE', ( #168, #184 ), #208, .F. ) ;
#61 = CC_DESIGN_APPROVAL ( #137, ( #20 ) ) ;
#62 = DIRECTION ( 'NONE',  ( 0.000000000000000000, -1.000000000000000000, 0.000000000000000000 ) ) ;
#63 = CALENDAR_DATE ( 2025, 5, 8 ) ;
#64 = CYLINDRICAL_SURFACE ( 'NONE', #206, 7.500000000000000000 ) ;
#65 = COORDINATED_UNIVERSAL_TIME_OFFSET ( 2, 0, .AHEAD. ) ;
#66 = DIRECTION ( 'NONE',  ( -1.000000000000000000, -3.944304526105059027E-31, -4.930380657631323784E-32 ) ) ;
#67 = PRODUCT_RELATED_PRODUCT_CATEGORY ( 'detail', '', ( #279 ) ) ;
#68 = DIRECTION ( 'NONE',  ( 8.832967458694867743E-17, -0.5304019860740516457, -0.8477462669742057422 ) ) ;
#69 = VERTEX_POINT ( 'NONE', #116 ) ;
#70 = EDGE_CURVE ( 'NONE', #5, #5, #278, .T. ) ;
#71 = FACE_OUTER_BOUND ( 'NONE', #33, .T. ) ;
#72 = CIRCLE ( 'NONE', #25, 19.99999999999999645 ) ;
#73 = AXIS2_PLACEMENT_3D ( 'NONE', #254, #51, #32 ) ;
#74 = DIRECTION ( 'NONE',  ( 0.000000000000000000, 1.000000000000000000, 0.000000000000000000 ) ) ;
#75 = DIRECTION ( 'NONE',  ( 0.000000000000000000, -1.000000000000000000, 0.000000000000000000 ) ) ;
#76 = APPROVAL ( #130, 'UNSPECIFIED' ) ;
#77 = ORIENTED_EDGE ( 'NONE', *, *, #13, .T. ) ;
#78 = DIRECTION ( 'NONE',  ( 0.000000000000000000, 1.000000000000000000, 0.000000000000000000 ) ) ;
#79 = ORIENTED_EDGE ( 'NONE', *, *, #157, .T. ) ;
#80 = SHAPE_DEFINITION_REPRESENTATION ( #284, #40 ) ;
#81 = EDGE_LOOP ( 'NONE', ( #17 ) ) ;
#82 = APPROVAL_STATUS ( 'not_yet_approved' ) ;
#83 = EDGE_LOOP ( 'NONE', ( #150 ) ) ;
#84 = DATE_AND_TIME ( #103, #197 ) ;
#85 = FACE_OUTER_BOUND ( 'NONE', #237, .T. ) ;
#86 = MECHANICAL_CONTEXT ( 'NONE', #186, 'mechanical' ) ;
#87 = DIRECTION ( 'NONE',  ( 4.930380657631323784E-32, -2.674327582503997591E-31, 1.000000000000000000 ) ) ;
#88 = DATE_AND_TIME ( #242, #136 ) ;
#89 = APPROVAL ( #82, 'UNSPECIFIED' ) ;
#90 = DIRECTION ( 'NONE',  ( -3.944304526105059027E-31, 1.000000000000000000, 0.000000000000000000 ) ) ;
#91 = CLOSED_SHELL ( 'NONE', ( #60, #167, #142, #149, #246, #49, #219, #209, #189, #96, #30 ) ) ;
#92 = CC_DESIGN_PERSON_AND_ORGANIZATION_ASSIGNMENT ( #181, #267, ( #20 ) ) ;
#93 = AXIS2_PLACEMENT_3D ( 'NONE', #141, #6, #244 ) ;
#94 = DIRECTION ( 'NONE',  ( -4.930380657631323784E-32, 2.674327582503997591E-31, -1.000000000000000000 ) ) ;
#95 = DIRECTION ( 'NONE',  ( 1.000000000000000000, 1.665334536937737029E-16, -1.990607600898564943E-32 ) ) ;
#96 = ADVANCED_FACE ( 'NONE', ( #133, #27 ), #134, .F. ) ;
#97 = CIRCLE ( 'NONE', #28, 7.500000000000000000 ) ;
#98 = CARTESIAN_POINT ( 'NONE',  ( 127.5000000000000568, 19.99999999999999645, 4.891548597796687089E-30 ) ) ;
#99 = VERTEX_POINT ( 'NONE', #143 ) ;
#100 = EDGE_LOOP ( 'NONE', ( #199 ) ) ;
#101 = DATE_TIME_ROLE ( 'creation_date' ) ;
#102 = ORIENTED_EDGE ( 'NONE', *, *, #170, .T. ) ;
#103 = CALENDAR_DATE ( 2025, 5, 8 ) ;
#104 = EDGE_LOOP ( 'NONE', ( #79 ) ) ;
#105 = PERSON ( 'UNSPECIFIED', 'UNSPECIFIED', 'UNSPECIFIED', ('UNSPECIFIED'), ('UNSPECIFIED'), ('UNSPECIFIED') ) ;
#106 = APPLICATION_PROTOCOL_DEFINITION ( 'international standard', 'config_control_design', 1994, #2 ) ;
#107 = CARTESIAN_POINT ( 'NONE',  ( 145.0000000000000284, 5.719241562852336710E-29, 7.149051953565420888E-30 ) ) ;
#108 = CIRCLE ( 'NONE', #73, 7.500000000000000000 ) ;
#109 = PERSON_AND_ORGANIZATION ( #105, #231 ) ;
#110 = DIRECTION ( 'NONE',  ( -1.000000000000000000, -3.944304526105059027E-31, -4.930380657631323784E-32 ) ) ;
#111 = AXIS2_PLACEMENT_3D ( 'NONE', #8, #172, #235 ) ;
#112 = DIRECTION ( 'NONE',  ( 1.000000000000000000, 3.944304526105059027E-31, -4.930380657631323784E-32 ) ) ;
#113 = AXIS2_PLACEMENT_3D ( 'NONE', #270, #3, #68 ) ;
#114 = CARTESIAN_POINT ( 'NONE',  ( 0.000000000000000000, 0.000000000000000000, 0.000000000000000000 ) ) ;
#115 =( NAMED_UNIT ( * ) PLANE_ANGLE_UNIT ( ) SI_UNIT ( $, .RADIAN. ) );
#116 = CARTESIAN_POINT ( 'NONE',  ( 17.50000000000007461, 7.500000000000000000, 8.628166150854853406E-31 ) ) ;
#117 = CC_DESIGN_DATE_AND_TIME_ASSIGNMENT ( #88, #269, ( #280 ) ) ;
#118 = CARTESIAN_POINT ( 'NONE',  ( 14.99999999999998579, 7.500000000000000000, 7.395570986446978669E-31 ) ) ;
#119 = CC_DESIGN_APPROVAL ( #76, ( #280 ) ) ;
#120 = ORIENTED_EDGE ( 'NONE', *, *, #288, .T. ) ;
#121 = CARTESIAN_POINT ( 'NONE',  ( -39.06854249492366904, -2.624043357517373758E-14, 8.207274665406593878E-30 ) ) ;
#122 = EDGE_LOOP ( 'NONE', ( #102 ) ) ;
#123 = DIRECTION ( 'NONE',  ( 0.000000000000000000, 1.000000000000000000, 0.000000000000000000 ) ) ;
#124 = CARTESIAN_POINT ( 'NONE',  ( 0.000000000000000000, 0.000000000000000000, 0.000000000000000000 ) ) ;
#125 = AXIS2_PLACEMENT_3D ( 'NONE', #114, #18, #226 ) ;
#126 = EDGE_CURVE ( 'NONE', #171, #171, #19, .T. ) ;
#127 = EDGE_LOOP ( 'NONE', ( #201 ) ) ;
#128 = PERSON_AND_ORGANIZATION ( #105, #231 ) ;
#129 = ORIENTED_EDGE ( 'NONE', *, *, #238, .T. ) ;
#130 = APPROVAL_STATUS ( 'not_yet_approved' ) ;
#131 = FACE_OUTER_BOUND ( 'NONE', #220, .T. ) ;
#132 = PERSON_AND_ORGANIZATION ( #105, #231 ) ;
#133 = FACE_OUTER_BOUND ( 'NONE', #173, .T. ) ;
#134 = PLANE ( 'NONE',  #139 ) ;
#135 = CARTESIAN_POINT ( 'NONE',  ( 15.00000000000000000, 0.000000000000000000, 1.387778780781445676E-14 ) ) ;
#136 = LOCAL_TIME ( 8, 42, 30.00000000000000000, #151 ) ;
#137 = APPROVAL ( #295, 'UNSPECIFIED' ) ;
#138 = PLANE ( 'NONE',  #240 ) ;
#139 = AXIS2_PLACEMENT_3D ( 'NONE', #185, #249, #187 ) ;
#140 = VERTEX_POINT ( 'NONE', #118 ) ;
#141 = CARTESIAN_POINT ( 'NONE',  ( 0.000000000000000000, 0.000000000000000000, 0.000000000000000000 ) ) ;
#142 = ADVANCED_FACE ( 'NONE', ( #182, #225 ), #159, .T. ) ;
#143 = CARTESIAN_POINT ( 'NONE',  ( 17.50000000000006750, 19.99999999999997868, 7.081216958785108281E-30 ) ) ;
#144 = EDGE_LOOP ( 'NONE', ( #129 ) ) ;
#145 = AXIS2_PLACEMENT_3D ( 'NONE', #57, #174, #147 ) ;
#146 = DIRECTION ( 'NONE',  ( 1.000000000000000000, 1.665334536937736783E-16, -1.990607600898564670E-32 ) ) ;
#147 = DIRECTION ( 'NONE',  ( -1.734723475976807341E-16, 1.000000000000000000, 0.000000000000000000 ) ) ;
#148 = EDGE_LOOP ( 'NONE', ( #241 ) ) ;
#149 = ADVANCED_FACE ( 'NONE', ( #50, #156 ), #138, .F. ) ;
#150 = ORIENTED_EDGE ( 'NONE', *, *, #195, .F. ) ;
#151 = COORDINATED_UNIVERSAL_TIME_OFFSET ( 2, 0, .AHEAD. ) ;
#152 = AXIS2_PLACEMENT_3D ( 'NONE', #204, #66, #90 ) ;
#153 =( GEOMETRIC_REPRESENTATION_CONTEXT ( 3 ) GLOBAL_UNCERTAINTY_ASSIGNED_CONTEXT ( ( #163 ) ) GLOBAL_UNIT_ASSIGNED_CONTEXT ( ( #34, #115, #285 ) ) REPRESENTATION_CONTEXT ( 'NONE', 'WORKASPACE' ) );
#154 = ORIENTED_EDGE ( 'NONE', *, *, #170, .F. ) ;
#155 = PERSON_AND_ORGANIZATION_ROLE ( 'design_owner' ) ;
#156 = FACE_OUTER_BOUND ( 'NONE', #100, .T. ) ;
#157 = EDGE_CURVE ( 'NONE', #258, #258, #255, .T. ) ;
#158 = DATE_AND_TIME ( #58, #224 ) ;
#159 = CYLINDRICAL_SURFACE ( 'NONE', #48, 5.000000000000000000 ) ;
#160 = PERSON_AND_ORGANIZATION ( #105, #231 ) ;
#161 = AXIS2_PLACEMENT_3D ( 'NONE', #248, #47, #273 ) ;
#162 = DIRECTION ( 'NONE',  ( -1.000000000000000000, -3.944304526105059027E-31, -4.930380657631323784E-32 ) ) ;
#163 = UNCERTAINTY_MEASURE_WITH_UNIT (LENGTH_MEASURE( 1.000000000000000082E-05 ), #34, 'distance_accuracy_value', 'NONE');
#164 = DIRECTION ( 'NONE',  ( -1.000000000000000000, -3.944304526105059027E-31, 4.930380657631323784E-32 ) ) ;
#165 = AXIS2_PLACEMENT_3D ( 'NONE', #233, #31, #75 ) ;
#166 = APPROVAL_PERSON_ORGANIZATION ( #175, #89, #37 ) ;
#167 = ADVANCED_FACE ( 'NONE', ( #180 ), #43, .F. ) ;
#168 = FACE_BOUND ( 'NONE', #59, .T. ) ;
#169 = CARTESIAN_POINT ( 'NONE',  ( 130.0000000000000000, -7.500000000000000000, 6.409494854920720919E-30 ) ) ;
#170 = EDGE_CURVE ( 'NONE', #140, #140, #97, .T. ) ;
#171 = VERTEX_POINT ( 'NONE', #4 ) ;
#172 = DIRECTION ( 'NONE',  ( -1.000000000000000000, -3.944304526105059027E-31, -4.930380657631323784E-32 ) ) ;
#173 = EDGE_LOOP ( 'NONE', ( #286 ) ) ;
#174 = DIRECTION ( 'NONE',  ( -1.000000000000000000, -1.665334536937737029E-16, 1.990607600898564943E-32 ) ) ;
#175 = PERSON_AND_ORGANIZATION ( #105, #231 ) ;
#176 = EDGE_LOOP ( 'NONE', ( #261 ) ) ;
#177 = EDGE_LOOP ( 'NONE', ( #154 ) ) ;
#178 = AXIS2_PLACEMENT_3D ( 'NONE', #121, #146, #123 ) ;
#179 = CC_DESIGN_PERSON_AND_ORGANIZATION_ASSIGNMENT ( #203, #39, ( #280 ) ) ;
#180 = FACE_OUTER_BOUND ( 'NONE', #81, .T. ) ;
#181 = PERSON_AND_ORGANIZATION ( #105, #231 ) ;
#182 = FACE_OUTER_BOUND ( 'NONE', #263, .T. ) ;
#183 = APPROVAL_DATE_TIME ( #158, #137 ) ;
#184 = FACE_OUTER_BOUND ( 'NONE', #122, .T. ) ;
#185 = CARTESIAN_POINT ( 'NONE',  ( 130.0000000000000000, 7.500000000000003553, 0.000000000000000000 ) ) ;
#186 = APPLICATION_CONTEXT ( 'configuration controlled 3d designs of mechanical parts and assemblies' ) ;
#187 = DIRECTION ( 'NONE',  ( 4.930380657631323784E-32, -2.674327582503997591E-31, 1.000000000000000000 ) ) ;
#188 = CARTESIAN_POINT ( 'NONE',  ( -1.972152263052529514E-30, 5.000000000000000000, 0.000000000000000000 ) ) ;
#189 = ADVANCED_FACE ( 'NONE', ( #243 ), #22, .F. ) ;
#190 = CIRCLE ( 'NONE', #7, 7.500000000000000000 ) ;
#191 = APPROVAL_PERSON_ORGANIZATION ( #132, #137, #21 ) ;
#192 = FACE_OUTER_BOUND ( 'NONE', #148, .T. ) ;
#193 = VERTEX_POINT ( 'NONE', #283 ) ;
#194 = CARTESIAN_POINT ( 'NONE',  ( 145.0000000000000284, -5.000000000000000888, 7.149051953565420888E-30 ) ) ;
#195 = EDGE_CURVE ( 'NONE', #211, #211, #215, .T. ) ;
#196 = APPROVAL_DATE_TIME ( #84, #76 ) ;
#197 = LOCAL_TIME ( 8, 42, 30.00000000000000000, #247 ) ;
#198 = FACE_BOUND ( 'NONE', #144, .T. ) ;
#199 = ORIENTED_EDGE ( 'NONE', *, *, #229, .T. ) ;
#200 = CC_DESIGN_PERSON_AND_ORGANIZATION_ASSIGNMENT ( #128, #42, ( #293 ) ) ;
#201 = ORIENTED_EDGE ( 'NONE', *, *, #157, .F. ) ;
#202 = CARTESIAN_POINT ( 'NONE',  ( 0.000000000000000000, 0.000000000000000000, 0.000000000000000000 ) ) ;
#203 = PERSON_AND_ORGANIZATION ( #105, #231 ) ;
#204 = CARTESIAN_POINT ( 'NONE',  ( 0.000000000000000000, 0.000000000000000000, 0.000000000000000000 ) ) ;
#205 = DIRECTION ( 'NONE',  ( 1.000000000000000000, 3.944304526105059027E-31, 4.930380657631323784E-32 ) ) ;
#206 = AXIS2_PLACEMENT_3D ( 'NONE', #202, #294, #87 ) ;
#207 = PLANE ( 'NONE',  #113 ) ;
#208 = PLANE ( 'NONE',  #271 ) ;
#209 = ADVANCED_FACE ( 'NONE', ( #131, #222 ), #64, .T. ) ;
#210 = APPLICATION_PROTOCOL_DEFINITION ( 'international standard', 'config_control_design', 1994, #186 ) ;
#211 = VERTEX_POINT ( 'NONE', #194 ) ;
#212 = ORIENTED_EDGE ( 'NONE', *, *, #274, .F. ) ;
#213 = CARTESIAN_POINT ( 'NONE',  ( 17.50000000000007461, 6.902532920683882725E-30, 8.628166150854853406E-31 ) ) ;
#214 = DIRECTION ( 'NONE',  ( -1.000000000000000000, -3.944304526105059027E-31, -4.930380657631323784E-32 ) ) ;
#215 = CIRCLE ( 'NONE', #291, 5.000000000000000888 ) ;
#216 = DATE_AND_TIME ( #63, #56 ) ;
#217 = CC_DESIGN_SECURITY_CLASSIFICATION ( #280, ( #20 ) ) ;
#218 = ORIENTED_EDGE ( 'NONE', *, *, #126, .T. ) ;
#219 = ADVANCED_FACE ( 'NONE', ( #281, #192 ), #53, .T. ) ;
#220 = EDGE_LOOP ( 'NONE', ( #287 ) ) ;
#221 = SECURITY_CLASSIFICATION_LEVEL ( 'unclassified' ) ;
#222 = FACE_OUTER_BOUND ( 'NONE', #38, .T. ) ;
#223 = PERSON_AND_ORGANIZATION ( #105, #231 ) ;
#224 = LOCAL_TIME ( 8, 42, 30.00000000000000000, #265 ) ;
#225 = FACE_OUTER_BOUND ( 'NONE', #239, .T. ) ;
#226 = DIRECTION ( 'NONE',  ( -4.930380657631323784E-32, 2.674327582503997591E-31, -1.000000000000000000 ) ) ;
#227 = DIRECTION ( 'NONE',  ( 4.930380657631323784E-32, -2.674327582503997591E-31, 1.000000000000000000 ) ) ;
#228 = MANIFOLD_SOLID_BREP ( 'DeleteFace1', #91 ) ;
#229 = EDGE_CURVE ( 'NONE', #36, #36, #72, .T. ) ;
#230 = DIRECTION ( 'NONE',  ( -1.000000000000000000, -3.944304526105059027E-31, 4.930380657631323784E-32 ) ) ;
#231 = ORGANIZATION ( 'UNSPECIFIED', 'UNSPECIFIED', '' ) ;
#232 = DIRECTION ( 'NONE',  ( 1.000000000000000000, 1.665334536937737029E-16, -1.990607600898564943E-32 ) ) ;
#233 = CARTESIAN_POINT ( 'NONE',  ( 127.5000000000000000, 5.028988270783950259E-29, 6.286235338479937824E-30 ) ) ;
#234 = CIRCLE ( 'NONE', #145, 19.99999999999999645 ) ;
#235 = DIRECTION ( 'NONE',  ( 4.930380657631323784E-32, -2.674327582503997591E-31, 1.000000000000000000 ) ) ;
#236 = EDGE_LOOP ( 'NONE', ( #289 ) ) ;
#237 = EDGE_LOOP ( 'NONE', ( #77 ) ) ;
#238 = EDGE_CURVE ( 'NONE', #69, #69, #190, .T. ) ;
#239 = EDGE_LOOP ( 'NONE', ( #218 ) ) ;
#240 = AXIS2_PLACEMENT_3D ( 'NONE', #45, #230, #227 ) ;
#241 = ORIENTED_EDGE ( 'NONE', *, *, #238, .F. ) ;
#242 = CALENDAR_DATE ( 2025, 5, 8 ) ;
#243 = FACE_OUTER_BOUND ( 'NONE', #236, .T. ) ;
#244 = DIRECTION ( 'NONE',  ( 1.000000000000000000, 0.000000000000000000, 0.000000000000000000 ) ) ;
#245 = DIRECTION ( 'NONE',  ( 0.000000000000000000, -2.674327582503998029E-31, 1.000000000000000000 ) ) ;
#246 = ADVANCED_FACE ( 'NONE', ( #10, #71 ), #256, .T. ) ;
#247 = COORDINATED_UNIVERSAL_TIME_OFFSET ( 2, 0, .AHEAD. ) ;
#248 = CARTESIAN_POINT ( 'NONE',  ( 130.0000000000000000, 0.000000000000000000, 0.000000000000000000 ) ) ;
#249 = DIRECTION ( 'NONE',  ( -1.000000000000000000, -3.944304526105059027E-31, 4.930380657631323784E-32 ) ) ;
#250 = CC_DESIGN_PERSON_AND_ORGANIZATION_ASSIGNMENT ( #223, #155, ( #279 ) ) ;
#251 = AXIS2_PLACEMENT_3D ( 'NONE', #135, #162, #245 ) ;
#252 = LOCAL_TIME ( 8, 42, 30.00000000000000000, #65 ) ;
#253 = DIRECTION ( 'NONE',  ( 4.930380657631323784E-32, -2.674327582503998029E-31, 1.000000000000000000 ) ) ;
#254 = CARTESIAN_POINT ( 'NONE',  ( 130.0000000000000000, 5.127595883936576735E-29, 6.409494854920720919E-30 ) ) ;
#255 = CIRCLE ( 'NONE', #161, 5.000000000000000000 ) ;
#256 = CYLINDRICAL_SURFACE ( 'NONE', #178, 19.99999999999999645 ) ;
#257 = EDGE_LOOP ( 'NONE', ( #212 ) ) ;
#258 = VERTEX_POINT ( 'NONE', #276 ) ;
#259 = CYLINDRICAL_SURFACE ( 'NONE', #52, 5.000000000000000888 ) ;
#260 = DATE_AND_TIME ( #292, #252 ) ;
#261 = ORIENTED_EDGE ( 'NONE', *, *, #13, .F. ) ;
#262 = COORDINATED_UNIVERSAL_TIME_OFFSET ( 2, 0, .AHEAD. ) ;
#263 = EDGE_LOOP ( 'NONE', ( #290 ) ) ;
#264 = CIRCLE ( 'NONE', #165, 7.500000000000000000 ) ;
#265 = COORDINATED_UNIVERSAL_TIME_OFFSET ( 2, 0, .AHEAD. ) ;
#266 = DIRECTION ( 'NONE',  ( 0.000000000000000000, 1.000000000000000000, 0.000000000000000000 ) ) ;
#267 = PERSON_AND_ORGANIZATION_ROLE ( 'creator' ) ;
#268 = DIRECTION ( 'NONE',  ( 4.930380657631323784E-32, -2.674327582503997591E-31, 1.000000000000000000 ) ) ;
#269 = DATE_TIME_ROLE ( 'classification_date' ) ;
#270 = CARTESIAN_POINT ( 'NONE',  ( 17.50000000000007105, 16.95492533948409886, -10.60803972148103647 ) ) ;
#271 = AXIS2_PLACEMENT_3D ( 'NONE', #24, #112, #94 ) ;
#272 = APPROVAL_PERSON_ORGANIZATION ( #160, #76, #44 ) ;
#273 = DIRECTION ( 'NONE',  ( 0.000000000000000000, -2.674327582503998029E-31, 1.000000000000000000 ) ) ;
#274 = EDGE_CURVE ( 'NONE', #193, #193, #264, .T. ) ;
#275 = CARTESIAN_POINT ( 'NONE',  ( 0.000000000000000000, 0.000000000000000000, 0.000000000000000000 ) ) ;
#276 = CARTESIAN_POINT ( 'NONE',  ( 130.0000000000000000, -1.337163791251998927E-30, 5.000000000000000000 ) ) ;
#277 = CARTESIAN_POINT ( 'NONE',  ( 127.5000000000000568, 1.498801083244018128E-15, 4.891548597796687089E-30 ) ) ;
#278 = CIRCLE ( 'NONE', #152, 5.000000000000000000 ) ;
#279 = PRODUCT ( '250805 STEP 3-400169-00_0136', '250805 STEP 3-400169-00_0136', '', ( #86 ) ) ;
#280 = SECURITY_CLASSIFICATION ( '', '', #221 ) ;
#281 = FACE_OUTER_BOUND ( 'NONE', #177, .T. ) ;
#282 = CC_DESIGN_PERSON_AND_ORGANIZATION_ASSIGNMENT ( #109, #16, ( #20 ) ) ;
#283 = CARTESIAN_POINT ( 'NONE',  ( 127.5000000000000000, -7.500000000000000000, 6.286235338479937824E-30 ) ) ;
#284 = PRODUCT_DEFINITION_SHAPE ( 'NONE', 'NONE',  #293 ) ;
#285 =( NAMED_UNIT ( * ) SI_UNIT ( $, .STERADIAN. ) SOLID_ANGLE_UNIT ( ) );
#286 = ORIENTED_EDGE ( 'NONE', *, *, #288, .F. ) ;
#287 = ORIENTED_EDGE ( 'NONE', *, *, #274, .T. ) ;
#288 = EDGE_CURVE ( 'NONE', #55, #55, #108, .T. ) ;
#289 = ORIENTED_EDGE ( 'NONE', *, *, #195, .T. ) ;
#290 = ORIENTED_EDGE ( 'NONE', *, *, #70, .F. ) ;
#291 = AXIS2_PLACEMENT_3D ( 'NONE', #107, #205, #62 ) ;
#292 = CALENDAR_DATE ( 2025, 5, 8 ) ;
#293 = PRODUCT_DEFINITION ( 'UNKNOWN', '', #20, #46 ) ;
#294 = DIRECTION ( 'NONE',  ( -1.000000000000000000, -3.944304526105059027E-31, -4.930380657631323784E-32 ) ) ;
#295 = APPROVAL_STATUS ( 'not_yet_approved' ) ;
ENDSEC;
END-ISO-10303-21;
